ISO-10303-21;
HEADER;
/* Generated by software containing ST-Developer
 * from STEP Tools, Inc. (www.steptools.com) 
 */

FILE_DESCRIPTION(
/* description */ ('PLEASE STATE GENERIC DESCRIPTION'),
/* implementation_level */ '2;1');

FILE_NAME(
/* name */ 'C:\\_CAD\\Design\\Safeline\\Export Models\\SL-014.stp',
/* time_stamp */ '2016-02-09T17:48:35+00:00',
/* author */ ('jslaven'),
/* organization */ (''),
/* preprocessor_version */ 'ST-DEVELOPER v15.2',
/* originating_system */ 'Autodesk Inventor 2014',
/* authorisation */ '');

FILE_SCHEMA (('CONFIG_CONTROL_DESIGN'));
ENDSEC;

DATA;
#10=SHAPE_REPRESENTATION_RELATIONSHIP('SRR','None',#246,#11);
#11=ADVANCED_BREP_SHAPE_REPRESENTATION($,(#137),#237);
#12=CYLINDRICAL_SURFACE($,#144,6.35);
#13=CYLINDRICAL_SURFACE($,#148,4.165);
#14=CYLINDRICAL_SURFACE($,#156,4.165);
#15=PLANE($,#142);
#16=PLANE($,#152);
#17=FACE_BOUND($,#38,.T.);
#18=FACE_BOUND($,#39,.T.);
#19=FACE_BOUND($,#40,.T.);
#20=FACE_BOUND($,#42,.T.);
#21=FACE_BOUND($,#44,.T.);
#22=FACE_BOUND($,#46,.T.);
#23=FACE_BOUND($,#48,.T.);
#24=FACE_BOUND($,#49,.T.);
#25=FACE_BOUND($,#50,.T.);
#26=FACE_BOUND($,#52,.T.);
#27=FACE_BOUND($,#54,.T.);
#28=FACE_OUTER_BOUND($,#37,.T.);
#29=FACE_OUTER_BOUND($,#41,.T.);
#30=FACE_OUTER_BOUND($,#43,.T.);
#31=FACE_OUTER_BOUND($,#45,.T.);
#32=FACE_OUTER_BOUND($,#47,.T.);
#33=FACE_OUTER_BOUND($,#51,.T.);
#34=FACE_OUTER_BOUND($,#53,.T.);
#35=FACE_OUTER_BOUND($,#55,.T.);
#36=FACE_OUTER_BOUND($,#56,.T.);
#37=EDGE_LOOP($,(#87));
#38=EDGE_LOOP($,(#88));
#39=EDGE_LOOP($,(#89));
#40=EDGE_LOOP($,(#90));
#41=EDGE_LOOP($,(#91));
#42=EDGE_LOOP($,(#92));
#43=EDGE_LOOP($,(#93));
#44=EDGE_LOOP($,(#94));
#45=EDGE_LOOP($,(#95));
#46=EDGE_LOOP($,(#96));
#47=EDGE_LOOP($,(#97));
#48=EDGE_LOOP($,(#98));
#49=EDGE_LOOP($,(#99));
#50=EDGE_LOOP($,(#100));
#51=EDGE_LOOP($,(#101));
#52=EDGE_LOOP($,(#102));
#53=EDGE_LOOP($,(#103));
#54=EDGE_LOOP($,(#104));
#55=EDGE_LOOP($,(#105));
#56=EDGE_LOOP($,(#106));
#57=CIRCLE($,#140,5.85);
#58=CIRCLE($,#141,6.35);
#59=CIRCLE($,#143,4.665);
#60=CIRCLE($,#145,6.35);
#61=CIRCLE($,#147,4.165);
#62=CIRCLE($,#149,4.165);
#63=CIRCLE($,#151,5.85);
#64=CIRCLE($,#153,4.665);
#65=CIRCLE($,#155,4.165);
#66=CIRCLE($,#157,4.165);
#67=VERTEX_POINT($,#206);
#68=VERTEX_POINT($,#208);
#69=VERTEX_POINT($,#211);
#70=VERTEX_POINT($,#214);
#71=VERTEX_POINT($,#217);
#72=VERTEX_POINT($,#220);
#73=VERTEX_POINT($,#223);
#74=VERTEX_POINT($,#226);
#75=VERTEX_POINT($,#229);
#76=VERTEX_POINT($,#232);
#77=EDGE_CURVE($,#67,#67,#57,.T.);
#78=EDGE_CURVE($,#68,#68,#58,.T.);
#79=EDGE_CURVE($,#69,#69,#59,.T.);
#80=EDGE_CURVE($,#70,#70,#60,.T.);
#81=EDGE_CURVE($,#71,#71,#61,.T.);
#82=EDGE_CURVE($,#72,#72,#62,.T.);
#83=EDGE_CURVE($,#73,#73,#63,.T.);
#84=EDGE_CURVE($,#74,#74,#64,.T.);
#85=EDGE_CURVE($,#75,#75,#65,.T.);
#86=EDGE_CURVE($,#76,#76,#66,.T.);
#87=ORIENTED_EDGE($,*,*,#77,.T.);
#88=ORIENTED_EDGE($,*,*,#78,.T.);
#89=ORIENTED_EDGE($,*,*,#79,.F.);
#90=ORIENTED_EDGE($,*,*,#77,.F.);
#91=ORIENTED_EDGE($,*,*,#80,.F.);
#92=ORIENTED_EDGE($,*,*,#78,.F.);
#93=ORIENTED_EDGE($,*,*,#81,.T.);
#94=ORIENTED_EDGE($,*,*,#79,.T.);
#95=ORIENTED_EDGE($,*,*,#82,.F.);
#96=ORIENTED_EDGE($,*,*,#81,.F.);
#97=ORIENTED_EDGE($,*,*,#80,.T.);
#98=ORIENTED_EDGE($,*,*,#83,.T.);
#99=ORIENTED_EDGE($,*,*,#84,.F.);
#100=ORIENTED_EDGE($,*,*,#83,.F.);
#101=ORIENTED_EDGE($,*,*,#85,.T.);
#102=ORIENTED_EDGE($,*,*,#84,.T.);
#103=ORIENTED_EDGE($,*,*,#86,.F.);
#104=ORIENTED_EDGE($,*,*,#85,.F.);
#105=ORIENTED_EDGE($,*,*,#86,.T.);
#106=ORIENTED_EDGE($,*,*,#82,.T.);
#107=CONICAL_SURFACE($,#139,6.1,44.9999999999996);
#108=CONICAL_SURFACE($,#146,4.415,44.9999999999996);
#109=CONICAL_SURFACE($,#150,6.1,45.);
#110=CONICAL_SURFACE($,#154,4.415,45.0000000000001);
#111=CONICAL_SURFACE($,#158,2.0825,59.);
#112=CONICAL_SURFACE($,#159,2.0825,59.);
#113=STYLED_ITEM($,(#255),#125);
#114=STYLED_ITEM($,(#255),#126);
#115=STYLED_ITEM($,(#255),#127);
#116=STYLED_ITEM($,(#255),#128);
#117=STYLED_ITEM($,(#255),#129);
#118=STYLED_ITEM($,(#255),#130);
#119=STYLED_ITEM($,(#255),#131);
#120=STYLED_ITEM($,(#255),#132);
#121=STYLED_ITEM($,(#255),#133);
#122=STYLED_ITEM($,(#255),#134);
#123=STYLED_ITEM($,(#255),#135);
#124=STYLED_ITEM($,(#254),#137);
#125=ADVANCED_FACE($,(#28,#17),#107,.T.);
#126=ADVANCED_FACE($,(#18,#19),#15,.F.);
#127=ADVANCED_FACE($,(#29,#20),#12,.T.);
#128=ADVANCED_FACE($,(#30,#21),#108,.F.);
#129=ADVANCED_FACE($,(#31,#22),#13,.F.);
#130=ADVANCED_FACE($,(#32,#23),#109,.T.);
#131=ADVANCED_FACE($,(#24,#25),#16,.T.);
#132=ADVANCED_FACE($,(#33,#26),#110,.F.);
#133=ADVANCED_FACE($,(#34,#27),#14,.F.);
#134=ADVANCED_FACE($,(#35),#111,.F.);
#135=ADVANCED_FACE($,(#36),#112,.F.);
#136=CLOSED_SHELL($,(#125,#126,#127,#128,#129,#130,#131,#132,#133,#134,
#135));
#137=MANIFOLD_SOLID_BREP('Solid8',#136);
#138=AXIS2_PLACEMENT_3D('placement',#204,#160,#161);
#139=AXIS2_PLACEMENT_3D($,#205,#162,#163);
#140=AXIS2_PLACEMENT_3D($,#207,#164,#165);
#141=AXIS2_PLACEMENT_3D($,#209,#166,#167);
#142=AXIS2_PLACEMENT_3D($,#210,#168,#169);
#143=AXIS2_PLACEMENT_3D($,#212,#170,#171);
#144=AXIS2_PLACEMENT_3D($,#213,#172,#173);
#145=AXIS2_PLACEMENT_3D($,#215,#174,#175);
#146=AXIS2_PLACEMENT_3D($,#216,#176,#177);
#147=AXIS2_PLACEMENT_3D($,#218,#178,#179);
#148=AXIS2_PLACEMENT_3D($,#219,#180,#181);
#149=AXIS2_PLACEMENT_3D($,#221,#182,#183);
#150=AXIS2_PLACEMENT_3D($,#222,#184,#185);
#151=AXIS2_PLACEMENT_3D($,#224,#186,#187);
#152=AXIS2_PLACEMENT_3D($,#225,#188,#189);
#153=AXIS2_PLACEMENT_3D($,#227,#190,#191);
#154=AXIS2_PLACEMENT_3D($,#228,#192,#193);
#155=AXIS2_PLACEMENT_3D($,#230,#194,#195);
#156=AXIS2_PLACEMENT_3D($,#231,#196,#197);
#157=AXIS2_PLACEMENT_3D($,#233,#198,#199);
#158=AXIS2_PLACEMENT_3D($,#234,#200,#201);
#159=AXIS2_PLACEMENT_3D($,#235,#202,#203);
#160=DIRECTION('axis',(0.,0.,1.));
#161=DIRECTION('refdir',(1.,0.,0.));
#162=DIRECTION('center_axis',(0.,0.,-1.));
#163=DIRECTION('ref_axis',(-1.,0.,0.));
#164=DIRECTION('center_axis',(0.,0.,-1.));
#165=DIRECTION('ref_axis',(-1.,0.,0.));
#166=DIRECTION('center_axis',(0.,0.,1.));
#167=DIRECTION('ref_axis',(-1.,0.,0.));
#168=DIRECTION('center_axis',(0.,0.,-1.));
#169=DIRECTION('ref_axis',(-1.,0.,0.));
#170=DIRECTION('center_axis',(0.,0.,1.));
#171=DIRECTION('ref_axis',(-1.,0.,0.));
#172=DIRECTION('center_axis',(0.,0.,1.));
#173=DIRECTION('ref_axis',(-1.,0.,0.));
#174=DIRECTION('center_axis',(0.,0.,-1.));
#175=DIRECTION('ref_axis',(-1.,0.,0.));
#176=DIRECTION('center_axis',(0.,0.,1.));
#177=DIRECTION('ref_axis',(-1.,0.,0.));
#178=DIRECTION('center_axis',(0.,0.,-1.));
#179=DIRECTION('ref_axis',(-1.,0.,0.));
#180=DIRECTION('center_axis',(0.,0.,1.));
#181=DIRECTION('ref_axis',(1.,0.,0.));
#182=DIRECTION('center_axis',(0.,0.,1.));
#183=DIRECTION('ref_axis',(1.,0.,0.));
#184=DIRECTION('center_axis',(0.,0.,1.));
#185=DIRECTION('ref_axis',(-1.,0.,0.));
#186=DIRECTION('center_axis',(0.,0.,1.));
#187=DIRECTION('ref_axis',(-1.,0.,0.));
#188=DIRECTION('center_axis',(0.,0.,-1.));
#189=DIRECTION('ref_axis',(-1.,0.,0.));
#190=DIRECTION('center_axis',(0.,0.,-1.));
#191=DIRECTION('ref_axis',(1.,0.,0.));
#192=DIRECTION('center_axis',(0.,0.,-1.));
#193=DIRECTION('ref_axis',(1.,0.,0.));
#194=DIRECTION('center_axis',(0.,0.,1.));
#195=DIRECTION('ref_axis',(1.,0.,0.));
#196=DIRECTION('center_axis',(0.,0.,-1.));
#197=DIRECTION('ref_axis',(-1.,0.,0.));
#198=DIRECTION('center_axis',(0.,0.,-1.));
#199=DIRECTION('ref_axis',(-1.,0.,0.));
#200=DIRECTION('center_axis',(0.,0.,-1.));
#201=DIRECTION('ref_axis',(-1.,0.,0.));
#202=DIRECTION('center_axis',(0.,0.,1.));
#203=DIRECTION('ref_axis',(1.,0.,0.));
#204=CARTESIAN_POINT('',(0.,0.,0.));
#205=CARTESIAN_POINT('Origin',(0.,0.,159.75));
#206=CARTESIAN_POINT('',(5.85,-7.16418377501202E-016,160.));
#207=CARTESIAN_POINT('Origin',(0.,0.,160.));
#208=CARTESIAN_POINT('',(6.35,7.77650717458569E-016,159.5));
#209=CARTESIAN_POINT('Origin',(0.,0.,159.5));
#210=CARTESIAN_POINT('Origin',(0.,0.,160.));
#211=CARTESIAN_POINT('',(4.665,5.7129773180224E-016,160.));
#212=CARTESIAN_POINT('Origin',(0.,0.,160.));
#213=CARTESIAN_POINT('Origin',(0.,0.,0.));
#214=CARTESIAN_POINT('',(6.35,-7.77650717458569E-016,0.5));
#215=CARTESIAN_POINT('Origin',(0.,0.,0.5));
#216=CARTESIAN_POINT('Origin',(0.,0.,159.75));
#217=CARTESIAN_POINT('',(4.165,-5.10065391844873E-016,159.5));
#218=CARTESIAN_POINT('Origin',(0.,0.,159.5));
#219=CARTESIAN_POINT('Origin',(0.,0.,128.5));
#220=CARTESIAN_POINT('',(4.165,0.,97.));
#221=CARTESIAN_POINT('Origin',(0.,0.,97.));
#222=CARTESIAN_POINT('Origin',(0.,0.,0.25));
#223=CARTESIAN_POINT('',(5.85,7.16418377501202E-016,0.));
#224=CARTESIAN_POINT('Origin',(0.,0.,0.));
#225=CARTESIAN_POINT('Origin',(0.,0.,0.));
#226=CARTESIAN_POINT('',(-4.665,5.7129773180224E-016,0.));
#227=CARTESIAN_POINT('Origin',(0.,0.,0.));
#228=CARTESIAN_POINT('Origin',(0.,0.,0.249999999999999));
#229=CARTESIAN_POINT('',(-4.165,-5.10065391844873E-016,0.499999999999998));
#230=CARTESIAN_POINT('Origin',(0.,0.,0.499999999999998));
#231=CARTESIAN_POINT('Origin',(0.,0.,31.5));
#232=CARTESIAN_POINT('',(-4.165,0.,63.));
#233=CARTESIAN_POINT('Origin',(0.,0.,63.));
#234=CARTESIAN_POINT('Origin',(0.,0.,64.2512922391249));
#235=CARTESIAN_POINT('Origin',(0.,0.,95.7487077608751));
#236=UNCERTAINTY_MEASURE_WITH_UNIT(LENGTH_MEASURE(0.01),#238,
'DISTANCE_ACCURACY_VALUE',
'Maximum model space distance between geometric entities at asserted c
onnectivities');
#237=(
GEOMETRIC_REPRESENTATION_CONTEXT(3)
GLOBAL_UNCERTAINTY_ASSIGNED_CONTEXT((#236))
GLOBAL_UNIT_ASSIGNED_CONTEXT((#238,#241,#239))
REPRESENTATION_CONTEXT('','3D')
);
#238=(
LENGTH_UNIT()
NAMED_UNIT(*)
SI_UNIT(.MILLI.,.METRE.)
);
#239=(
NAMED_UNIT(*)
SI_UNIT($,.STERADIAN.)
SOLID_ANGLE_UNIT()
);
#240=DIMENSIONAL_EXPONENTS(0.,0.,0.,0.,0.,0.,0.);
#241=(
CONVERSION_BASED_UNIT('degree',#243)
NAMED_UNIT(#240)
PLANE_ANGLE_UNIT()
);
#242=(
NAMED_UNIT(*)
PLANE_ANGLE_UNIT()
SI_UNIT($,.RADIAN.)
);
#243=PLANE_ANGLE_MEASURE_WITH_UNIT(PLANE_ANGLE_MEASURE(0.01745329252),#242);
#244=SHAPE_DEFINITION_REPRESENTATION(#245,#246);
#245=PRODUCT_DEFINITION_SHAPE('',$,#248);
#246=SHAPE_REPRESENTATION('',(#138),#237);
#247=DESIGN_CONTEXT('3D Mechanical Parts',#251,'design');
#248=PRODUCT_DEFINITION('Part35','Part35',#249,#247);
#249=PRODUCT_DEFINITION_FORMATION('',$,#253);
#250=APPLICATION_PROTOCOL_DEFINITION('international standard',
'ap203_configuration_controlled_3d_design_of_mechanical_parts_and_asse
mblies_mim_lf',2004,#251);
#251=APPLICATION_CONTEXT(
'Configuration Controlled 3D Design of Mechanical Parts and Assemblies');
#252=MECHANICAL_CONTEXT('3D Mechanical Parts',#251,'mechanical');
#253=PRODUCT('Part35','Part35',$,(#252));
#254=PRESENTATION_STYLE_ASSIGNMENT((#256));
#255=PRESENTATION_STYLE_ASSIGNMENT((#257));
#256=SURFACE_STYLE_USAGE(.BOTH.,#258);
#257=SURFACE_STYLE_USAGE(.BOTH.,#259);
#258=SURFACE_SIDE_STYLE($,(#260));
#259=SURFACE_SIDE_STYLE($,(#261));
#260=SURFACE_STYLE_FILL_AREA(#262);
#261=SURFACE_STYLE_FILL_AREA(#263);
#262=FILL_AREA_STYLE($,(#264));
#263=FILL_AREA_STYLE($,(#265));
#264=FILL_AREA_STYLE_COLOUR($,#266);
#265=FILL_AREA_STYLE_COLOUR($,#267);
#266=COLOUR_RGB('',1.,0.501960784313725,0.749019607843137);
#267=COLOUR_RGB('',0.752941176470588,0.752941176470588,0.752941176470588);
ENDSEC;
END-ISO-10303-21;
